ISO-10303-21;
HEADER;
FILE_DESCRIPTION (( 'STEP AP203' ),
    '1' );
FILE_NAME ('BK7-LNPBSC-10-532.STEP',
    '2021-01-05T02:00:05',
    ( '' ),
    ( '' ),
    'SwSTEP 2.0',
    'SolidWorks 2020',
    '' );
FILE_SCHEMA (( 'CONFIG_CONTROL_DESIGN' ));
ENDSEC;

DATA;
#1 = ORIENTED_EDGE ( 'NONE', *, *, #21, .F. ) ;
#2 = EDGE_CURVE ( 'NONE', #176, #123, #165, .T. ) ;
#3 = PLANE ( 'NONE',  #300 ) ;
#4 = EDGE_CURVE ( 'NONE', #221, #241, #41, .T. ) ;
#5 = FACE_OUTER_BOUND ( 'NONE', #105, .T. ) ;
#6 = APPROVAL ( #246, 'UNSPECIFIED' ) ;
#7 = DIRECTION ( 'NONE',  ( -0.000000000000000000, -0.000000000000000000, -1.000000000000000000 ) ) ;
#8 = AXIS2_PLACEMENT_3D ( 'NONE', #33, #84, #136 ) ;
#9 = CARTESIAN_POINT ( 'NONE',  ( -5.000000000000000888, -4.999999999999998224, 5.000000000000000000 ) ) ;
#10 = DIRECTION ( 'NONE',  ( -0.7071067811865475727, -0.7071067811865474617, 0.000000000000000000 ) ) ;
#11 = FACE_OUTER_BOUND ( 'NONE', #146, .T. ) ;
#12 = EDGE_CURVE ( 'NONE', #29, #162, #89, .T. ) ;
#13 = CARTESIAN_POINT ( 'NONE',  ( -4.999999999999999112, -5.000000000000000000, -5.000000000000000000 ) ) ;
#14 = APPROVAL_DATE_TIME ( #62, #224 ) ;
#15 = ORIENTED_EDGE ( 'NONE', *, *, #78, .F. ) ;
#16 = ADVANCED_FACE ( 'NONE', ( #5 ), #251, .T. ) ;
#17 = LINE ( 'NONE', #39, #204 ) ;
#18 = AXIS2_PLACEMENT_3D ( 'NONE', #306, #275, #181 ) ;
#19 = DATE_TIME_ROLE ( 'creation_date' ) ;
#20 = CARTESIAN_POINT ( 'NONE',  ( -5.000000000000000888, -4.999999999999998224, 5.000000000000000000 ) ) ;
#21 = EDGE_CURVE ( 'NONE', #170, #26, #58, .T. ) ;
#22 = EDGE_CURVE ( 'NONE', #26, #176, #134, .T. ) ;
#23 =( LENGTH_UNIT ( ) NAMED_UNIT ( * ) SI_UNIT ( .MILLI., .METRE. ) );
#24 = ORGANIZATION ( 'UNSPECIFIED', 'UNSPECIFIED', '' ) ;
#25 = EDGE_LOOP ( 'NONE', ( #173, #48, #270, #64 ) ) ;
#26 = VERTEX_POINT ( 'NONE', #132 ) ;
#27 = CC_DESIGN_SECURITY_CLASSIFICATION ( #153, ( #135 ) ) ;
#28 = ORIENTED_EDGE ( 'NONE', *, *, #21, .T. ) ;
#29 = VERTEX_POINT ( 'NONE', #273 ) ;
#30 = VECTOR ( 'NONE', #215, 1000.000000000000000 ) ;
#31 = DIRECTION ( 'NONE',  ( 1.000000000000000000, -4.857225732735059864E-17, 0.000000000000000000 ) ) ;
#32 = ADVANCED_FACE ( 'NONE', ( #250 ), #207, .F. ) ;
#33 = CARTESIAN_POINT ( 'NONE',  ( 5.000000000000000888, 5.000000000000001776, 5.000000000000000000 ) ) ;
#34 = CARTESIAN_POINT ( 'NONE',  ( 0.000000000000000000, 0.000000000000000000, -5.000000000000000000 ) ) ;
#35 = DIRECTION ( 'NONE',  ( 1.000000000000000000, 0.000000000000000000, 0.000000000000000000 ) ) ;
#36 = CARTESIAN_POINT ( 'NONE',  ( -4.999999999999999112, -5.000000000000000000, 5.000000000000000000 ) ) ;
#37 = FACE_OUTER_BOUND ( 'NONE', #299, .T. ) ;
#38 = CALENDAR_DATE ( 2021, 5, 1 ) ;
#39 = CARTESIAN_POINT ( 'NONE',  ( 5.000000000000002665, 5.000000000000000000, -5.000000000000000000 ) ) ;
#40 = APPLICATION_PROTOCOL_DEFINITION ( 'international standard', 'config_control_design', 1994, #90 ) ;
#41 = LINE ( 'NONE', #155, #69 ) ;
#42 = DIRECTION ( 'NONE',  ( -0.000000000000000000, 0.000000000000000000, 1.000000000000000000 ) ) ;
#43 = LOCAL_TIME ( 10, 0, 5.000000000000000000, #290 ) ;
#44 = PRODUCT_DEFINITION ( 'UNKNOWN', '', #135, #119 ) ;
#45 = VECTOR ( 'NONE', #203, 1000.000000000000000 ) ;
#46 = PRODUCT_DEFINITION_SHAPE ( 'NONE', 'NONE',  #44 ) ;
#47 = ORIENTED_EDGE ( 'NONE', *, *, #151, .F. ) ;
#48 = ORIENTED_EDGE ( 'NONE', *, *, #274, .F. ) ;
#49 = EDGE_CURVE ( 'NONE', #79, #272, #177, .T. ) ;
#50 = CARTESIAN_POINT ( 'NONE',  ( 5.000000000000000888, 5.000000000000001776, 5.000000000000000000 ) ) ;
#51 = AXIS2_PLACEMENT_3D ( 'NONE', #154, #56, #111 ) ;
#52 = DIRECTION ( 'NONE',  ( 1.000000000000000000, 0.000000000000000000, 0.000000000000000000 ) ) ;
#53 = MANIFOLD_SOLID_BREP ( '¾µÏ', #255 ) ;
#54 = FACE_OUTER_BOUND ( 'NONE', #148, .T. ) ;
#55 = APPLICATION_CONTEXT ( 'configuration controlled 3d designs of mechanical parts and assemblies' ) ;
#56 = DIRECTION ( 'NONE',  ( -0.7071067811865474617, 0.7071067811865475727, 0.000000000000000000 ) ) ;
#57 = CARTESIAN_POINT ( 'NONE',  ( 5.000000000000002665, 5.000000000000000000, 5.000000000000000000 ) ) ;
#58 = LINE ( 'NONE', #304, #122 ) ;
#59 = CARTESIAN_POINT ( 'NONE',  ( 5.000000000000000888, -5.000000000000000000, -5.000000000000000000 ) ) ;
#60 = COORDINATED_UNIVERSAL_TIME_OFFSET ( 8, 0, .AHEAD. ) ;
#61 = CARTESIAN_POINT ( 'NONE',  ( -4.999999999999999112, -5.000000000000000000, 5.000000000000000000 ) ) ;
#62 = DATE_AND_TIME ( #38, #319 ) ;
#63 = EDGE_CURVE ( 'NONE', #123, #221, #229, .T. ) ;
#64 = ORIENTED_EDGE ( 'NONE', *, *, #210, .T. ) ;
#65 = DIRECTION ( 'NONE',  ( 0.000000000000000000, -0.000000000000000000, 1.000000000000000000 ) ) ;
#66 = CALENDAR_DATE ( 2021, 5, 1 ) ;
#67 = CC_DESIGN_PERSON_AND_ORGANIZATION_ASSIGNMENT ( #141, #237, ( #153 ) ) ;
#68 = LOCAL_TIME ( 10, 0, 5.000000000000000000, #292 ) ;
#69 = VECTOR ( 'NONE', #35, 1000.000000000000000 ) ;
#70 = APPROVAL_ROLE ( '' ) ;
#71 = PERSON_AND_ORGANIZATION_ROLE ( 'design_owner' ) ;
#72 = ADVANCED_FACE ( 'NONE', ( #185 ), #3, .F. ) ;
#73 = ORIENTED_EDGE ( 'NONE', *, *, #220, .F. ) ;
#74 = LOCAL_TIME ( 10, 0, 5.000000000000000000, #60 ) ;
#75 = EDGE_CURVE ( 'NONE', #170, #221, #133, .T. ) ;
#76 = ORIENTED_EDGE ( 'NONE', *, *, #278, .T. ) ;
#77 = ORIENTED_EDGE ( 'NONE', *, *, #210, .F. ) ;
#78 = EDGE_CURVE ( 'NONE', #26, #241, #107, .T. ) ;
#79 = VERTEX_POINT ( 'NONE', #247 ) ;
#80 = VECTOR ( 'NONE', #31, 1000.000000000000000 ) ;
#81 = DIRECTION ( 'NONE',  ( 1.734723475976807094E-16, 1.000000000000000000, -0.000000000000000000 ) ) ;
#82 = CALENDAR_DATE ( 2021, 5, 1 ) ;
#83 = PRODUCT_RELATED_PRODUCT_CATEGORY ( 'detail', '', ( #244 ) ) ;
#84 = DIRECTION ( 'NONE',  ( -4.857225732735059864E-17, -1.000000000000000000, 0.000000000000000000 ) ) ;
#85 = AXIS2_PLACEMENT_3D ( 'NONE', #168, #238, #317 ) ;
#86 = DIRECTION ( 'NONE',  ( 0.7071067811865474617, -0.7071067811865475727, 0.000000000000000000 ) ) ;
#87 = CARTESIAN_POINT ( 'NONE',  ( 5.000000000000002665, 5.000000000000000000, 5.000000000000000000 ) ) ;
#88 = PLANE ( 'NONE',  #171 ) ;
#89 = LINE ( 'NONE', #183, #45 ) ;
#90 = APPLICATION_CONTEXT ( 'configuration controlled 3d designs of mechanical parts and assemblies' ) ;
#91 = DIRECTION ( 'NONE',  ( 0.000000000000000000, 0.000000000000000000, 1.000000000000000000 ) ) ;
#92 = ORIENTED_EDGE ( 'NONE', *, *, #75, .T. ) ;
#93 = CARTESIAN_POINT ( 'NONE',  ( -5.000000000000000888, -4.999999999999998224, -5.000000000000000000 ) ) ;
#94 = EDGE_CURVE ( 'NONE', #320, #79, #202, .T. ) ;
#95 = DATE_AND_TIME ( #312, #68 ) ;
#96 = DIRECTION ( 'NONE',  ( -0.7071067811865475727, -0.7071067811865474617, 0.000000000000000000 ) ) ;
#97 = SECURITY_CLASSIFICATION_LEVEL ( 'unclassified' ) ;
#98 = MECHANICAL_CONTEXT ( 'NONE', #90, 'mechanical' ) ;
#99 = ADVANCED_BREP_SHAPE_REPRESENTATION ( 'BK7-LNPBSC-10-532', ( #266, #53, #85 ), #106 ) ;
#100 = ORIENTED_EDGE ( 'NONE', *, *, #49, .T. ) ;
#101 = VECTOR ( 'NONE', #109, 1000.000000000000000 ) ;
#102 = ORIENTED_EDGE ( 'NONE', *, *, #63, .T. ) ;
#103 = CC_DESIGN_DATE_AND_TIME_ASSIGNMENT ( #264, #129, ( #153 ) ) ;
#104 = ORIENTED_EDGE ( 'NONE', *, *, #12, .T. ) ;
#105 = EDGE_LOOP ( 'NONE', ( #258, #268, #73 ) ) ;
#106 =( GEOMETRIC_REPRESENTATION_CONTEXT ( 3 ) GLOBAL_UNCERTAINTY_ASSIGNED_CONTEXT ( ( #226 ) ) GLOBAL_UNIT_ASSIGNED_CONTEXT ( ( #23, #284, #216 ) ) REPRESENTATION_CONTEXT ( 'NONE', 'WORKASPACE' ) );
#107 = LINE ( 'NONE', #281, #101 ) ;
#108 = ADVANCED_FACE ( 'NONE', ( #223 ), #303, .F. ) ;
#109 = DIRECTION ( 'NONE',  ( -0.000000000000000000, -0.000000000000000000, -1.000000000000000000 ) ) ;
#110 = PERSON_AND_ORGANIZATION ( #128, #24 ) ;
#111 = DIRECTION ( 'NONE',  ( 0.7071067811865475727, 0.7071067811865474617, 0.000000000000000000 ) ) ;
#112 = DIRECTION ( 'NONE',  ( -0.000000000000000000, 0.000000000000000000, -1.000000000000000000 ) ) ;
#113 = CC_DESIGN_PERSON_AND_ORGANIZATION_ASSIGNMENT ( #120, #164, ( #135 ) ) ;
#114 = CARTESIAN_POINT ( 'NONE',  ( 5.000000000000002665, 5.000000000000000000, 5.000000000000000000 ) ) ;
#115 = CARTESIAN_POINT ( 'NONE',  ( -4.999999999999999112, 5.000000000000001776, 5.000000000000000000 ) ) ;
#116 = ADVANCED_FACE ( 'NONE', ( #54 ), #179, .F. ) ;
#117 = DIRECTION ( 'NONE',  ( -0.7071067811865475727, -0.7071067811865474617, 0.000000000000000000 ) ) ;
#118 = DIRECTION ( 'NONE',  ( 1.734723475976807094E-16, 1.000000000000000000, -0.000000000000000000 ) ) ;
#119 = DESIGN_CONTEXT ( 'detailed design', #55, 'design' ) ;
#120 = PERSON_AND_ORGANIZATION ( #128, #24 ) ;
#121 = DIRECTION ( 'NONE',  ( 1.000000000000000000, -2.220446049250313081E-16, 0.000000000000000000 ) ) ;
#122 = VECTOR ( 'NONE', #52, 1000.000000000000000 ) ;
#123 = VERTEX_POINT ( 'NONE', #157 ) ;
#124 = ORIENTED_EDGE ( 'NONE', *, *, #278, .F. ) ;
#125 = ADVANCED_FACE ( 'NONE', ( #253 ), #213, .T. ) ;
#126 = CC_DESIGN_APPROVAL ( #6, ( #153 ) ) ;
#127 = ORIENTED_EDGE ( 'NONE', *, *, #22, .T. ) ;
#128 = PERSON ( 'UNSPECIFIED', 'UNSPECIFIED', 'UNSPECIFIED', ('UNSPECIFIED'), ('UNSPECIFIED'), ('UNSPECIFIED') ) ;
#129 = DATE_TIME_ROLE ( 'classification_date' ) ;
#130 = VECTOR ( 'NONE', #81, 1000.000000000000000 ) ;
#131 = EDGE_CURVE ( 'NONE', #318, #29, #143, .T. ) ;
#132 = CARTESIAN_POINT ( 'NONE',  ( 5.000000000000000888, -5.000000000000000000, 5.000000000000000000 ) ) ;
#133 = LINE ( 'NONE', #152, #196 ) ;
#134 = LINE ( 'NONE', #114, #130 ) ;
#135 = PRODUCT_DEFINITION_FORMATION_WITH_SPECIFIED_SOURCE ( 'ANY', '', #244, .NOT_KNOWN. ) ;
#136 = DIRECTION ( 'NONE',  ( -1.000000000000000000, 4.857225732735059864E-17, 0.000000000000000000 ) ) ;
#137 = DIRECTION ( 'NONE',  ( -1.734723475976807094E-16, -1.000000000000000000, 0.000000000000000000 ) ) ;
#138 = CARTESIAN_POINT ( 'NONE',  ( -5.000000000000000888, -4.999999999999998224, 5.000000000000000000 ) ) ;
#139 = ORIENTED_EDGE ( 'NONE', *, *, #2, .T. ) ;
#140 = DIRECTION ( 'NONE',  ( 2.220446049250313081E-16, 1.000000000000000000, 0.000000000000000000 ) ) ;
#141 = PERSON_AND_ORGANIZATION ( #128, #24 ) ;
#142 = VECTOR ( 'NONE', #96, 1000.000000000000000 ) ;
#143 = LINE ( 'NONE', #307, #311 ) ;
#144 = COORDINATED_UNIVERSAL_TIME_OFFSET ( 8, 0, .AHEAD. ) ;
#145 = CC_DESIGN_APPROVAL ( #224, ( #135 ) ) ;
#146 = EDGE_LOOP ( 'NONE', ( #297, #150, #104 ) ) ;
#147 = EDGE_LOOP ( 'NONE', ( #232, #195, #240, #199 ) ) ;
#148 = EDGE_LOOP ( 'NONE', ( #197, #77, #100, #76 ) ) ;
#149 = VECTOR ( 'NONE', #231, 1000.000000000000000 ) ;
#150 = ORIENTED_EDGE ( 'NONE', *, *, #131, .T. ) ;
#151 = EDGE_CURVE ( 'NONE', #241, #123, #17, .T. ) ;
#152 = CARTESIAN_POINT ( 'NONE',  ( -4.999999999999999112, -5.000000000000000000, 5.000000000000000000 ) ) ;
#153 = SECURITY_CLASSIFICATION ( '', '', #97 ) ;
#154 = CARTESIAN_POINT ( 'NONE',  ( 5.000000000000000888, 5.000000000000001776, 5.000000000000000000 ) ) ;
#155 = CARTESIAN_POINT ( 'NONE',  ( -4.999999999999999112, -5.000000000000000000, -5.000000000000000000 ) ) ;
#156 = APPROVAL ( #315, 'UNSPECIFIED' ) ;
#157 = CARTESIAN_POINT ( 'NONE',  ( 5.000000000000002665, 5.000000000000000000, -5.000000000000000000 ) ) ;
#158 = CARTESIAN_POINT ( 'NONE',  ( 5.000000000000002665, 5.000000000000000000, 5.000000000000000000 ) ) ;
#159 = AXIS2_PLACEMENT_3D ( 'NONE', #20, #121, #91 ) ;
#160 = DIRECTION ( 'NONE',  ( 1.000000000000000000, 0.000000000000000000, 0.000000000000000000 ) ) ;
#161 = DATE_AND_TIME ( #291, #74 ) ;
#162 = VERTEX_POINT ( 'NONE', #282 ) ;
#163 = CARTESIAN_POINT ( 'NONE',  ( 5.000000000000000888, 5.000000000000001776, 5.000000000000000000 ) ) ;
#164 = PERSON_AND_ORGANIZATION_ROLE ( 'creator' ) ;
#165 = LINE ( 'NONE', #262, #222 ) ;
#166 = CARTESIAN_POINT ( 'NONE',  ( -5.000000000000000888, -4.999999999999998224, 5.000000000000000000 ) ) ;
#167 = AXIS2_PLACEMENT_3D ( 'NONE', #57, #254, #137 ) ;
#168 = CARTESIAN_POINT ( 'NONE',  ( 0.000000000000000000, 0.000000000000000000, 0.000000000000000000 ) ) ;
#169 = APPROVAL_ROLE ( '' ) ;
#170 = VERTEX_POINT ( 'NONE', #36 ) ;
#171 = AXIS2_PLACEMENT_3D ( 'NONE', #61, #289, #65 ) ;
#172 = ORIENTED_EDGE ( 'NONE', *, *, #4, .T. ) ;
#173 = ORIENTED_EDGE ( 'NONE', *, *, #12, .F. ) ;
#174 = ORIENTED_EDGE ( 'NONE', *, *, #75, .F. ) ;
#175 = APPROVAL_PERSON_ORGANIZATION ( #110, #6, #178 ) ;
#176 = VERTEX_POINT ( 'NONE', #191 ) ;
#177 = LINE ( 'NONE', #50, #188 ) ;
#178 = APPROVAL_ROLE ( '' ) ;
#179 = PLANE ( 'NONE',  #51 ) ;
#180 = CC_DESIGN_PERSON_AND_ORGANIZATION_ASSIGNMENT ( #260, #314, ( #135 ) ) ;
#181 = DIRECTION ( 'NONE',  ( 2.220446049250313081E-16, 1.000000000000000000, 0.000000000000000000 ) ) ;
#182 = DATE_AND_TIME ( #82, #265 ) ;
#183 = CARTESIAN_POINT ( 'NONE',  ( 5.000000000000000888, 5.000000000000001776, -5.000000000000000000 ) ) ;
#184 = PLANE ( 'NONE',  #271 ) ;
#185 = FACE_OUTER_BOUND ( 'NONE', #295, .T. ) ;
#186 = CARTESIAN_POINT ( 'NONE',  ( -4.999999999999999112, 5.000000000000001776, 5.000000000000000000 ) ) ;
#187 = APPROVAL_DATE_TIME ( #95, #156 ) ;
#188 = VECTOR ( 'NONE', #10, 1000.000000000000000 ) ;
#189 = DIRECTION ( 'NONE',  ( -0.000000000000000000, 0.000000000000000000, -1.000000000000000000 ) ) ;
#190 = PERSON_AND_ORGANIZATION_ROLE ( 'creator' ) ;
#191 = CARTESIAN_POINT ( 'NONE',  ( 5.000000000000002665, 5.000000000000000000, 5.000000000000000000 ) ) ;
#192 = EDGE_CURVE ( 'NONE', #162, #318, #313, .T. ) ;
#193 = AXIS2_PLACEMENT_3D ( 'NONE', #87, #86, #279 ) ;
#194 = APPLICATION_PROTOCOL_DEFINITION ( 'international standard', 'config_control_design', 1994, #55 ) ;
#195 = ORIENTED_EDGE ( 'NONE', *, *, #2, .F. ) ;
#196 = VECTOR ( 'NONE', #7, 1000.000000000000000 ) ;
#197 = ORIENTED_EDGE ( 'NONE', *, *, #192, .F. ) ;
#198 = ORIENTED_EDGE ( 'NONE', *, *, #131, .F. ) ;
#199 = ORIENTED_EDGE ( 'NONE', *, *, #78, .T. ) ;
#200 = ADVANCED_FACE ( 'NONE', ( #208 ), #88, .F. ) ;
#201 = COORDINATED_UNIVERSAL_TIME_OFFSET ( 8, 0, .AHEAD. ) ;
#202 = LINE ( 'NONE', #205, #80 ) ;
#203 = DIRECTION ( 'NONE',  ( 1.000000000000000000, -4.857225732735059864E-17, 0.000000000000000000 ) ) ;
#204 = VECTOR ( 'NONE', #118, 1000.000000000000000 ) ;
#205 = CARTESIAN_POINT ( 'NONE',  ( 5.000000000000000888, 5.000000000000001776, 5.000000000000000000 ) ) ;
#206 = LINE ( 'NONE', #138, #149 ) ;
#207 = PLANE ( 'NONE',  #8 ) ;
#208 = FACE_OUTER_BOUND ( 'NONE', #269, .T. ) ;
#209 = EDGE_LOOP ( 'NONE', ( #102, #174, #243, #139 ) ) ;
#210 = EDGE_CURVE ( 'NONE', #79, #162, #263, .T. ) ;
#211 = PLANE ( 'NONE',  #167 ) ;
#212 = PERSON_AND_ORGANIZATION ( #128, #24 ) ;
#213 = PLANE ( 'NONE',  #276 ) ;
#214 = PERSON_AND_ORGANIZATION ( #128, #24 ) ;
#215 = DIRECTION ( 'NONE',  ( 2.220446049250313081E-16, 1.000000000000000000, 0.000000000000000000 ) ) ;
#216 =( NAMED_UNIT ( * ) SI_UNIT ( $, .STERADIAN. ) SOLID_ANGLE_UNIT ( ) );
#217 = ORIENTED_EDGE ( 'NONE', *, *, #63, .F. ) ;
#218 = CC_DESIGN_PERSON_AND_ORGANIZATION_ASSIGNMENT ( #214, #71, ( #244 ) ) ;
#219 = VECTOR ( 'NONE', #189, 1000.000000000000000 ) ;
#220 = EDGE_CURVE ( 'NONE', #272, #320, #236, .T. ) ;
#221 = VERTEX_POINT ( 'NONE', #13 ) ;
#222 = VECTOR ( 'NONE', #288, 1000.000000000000000 ) ;
#223 = FACE_OUTER_BOUND ( 'NONE', #209, .T. ) ;
#224 = APPROVAL ( #287, 'UNSPECIFIED' ) ;
#225 = CARTESIAN_POINT ( 'NONE',  ( 5.000000000000002665, 5.000000000000000000, -5.000000000000000000 ) ) ;
#226 = UNCERTAINTY_MEASURE_WITH_UNIT (LENGTH_MEASURE( 1.000000000000000082E-05 ), #23, 'distance_accuracy_value', 'NONE');
#227 = DIRECTION ( 'NONE',  ( 1.000000000000000000, 0.000000000000000000, 0.000000000000000000 ) ) ;
#228 = DIRECTION ( 'NONE',  ( 0.000000000000000000, -0.000000000000000000, 1.000000000000000000 ) ) ;
#229 = LINE ( 'NONE', #225, #235 ) ;
#230 = PLANE ( 'NONE',  #159 ) ;
#231 = DIRECTION ( 'NONE',  ( -0.000000000000000000, 0.000000000000000000, -1.000000000000000000 ) ) ;
#232 = ORIENTED_EDGE ( 'NONE', *, *, #151, .T. ) ;
#233 = LINE ( 'NONE', #158, #294 ) ;
#234 = PERSON_AND_ORGANIZATION ( #128, #24 ) ;
#235 = VECTOR ( 'NONE', #308, 1000.000000000000000 ) ;
#236 = LINE ( 'NONE', #166, #30 ) ;
#237 = PERSON_AND_ORGANIZATION_ROLE ( 'classification_officer' ) ;
#238 = DIRECTION ( 'NONE',  ( 0.000000000000000000, 0.000000000000000000, 1.000000000000000000 ) ) ;
#239 = EDGE_CURVE ( 'NONE', #176, #170, #233, .T. ) ;
#240 = ORIENTED_EDGE ( 'NONE', *, *, #22, .F. ) ;
#241 = VERTEX_POINT ( 'NONE', #59 ) ;
#242 = ADVANCED_FACE ( 'NONE', ( #37 ), #230, .F. ) ;
#243 = ORIENTED_EDGE ( 'NONE', *, *, #239, .F. ) ;
#244 = PRODUCT ( 'BK7-LNPBSC-10-532', 'BK7-LNPBSC-10-532', '', ( #98 ) ) ;
#245 = EDGE_LOOP ( 'NONE', ( #285, #28, #127 ) ) ;
#246 = APPROVAL_STATUS ( 'not_yet_approved' ) ;
#247 = CARTESIAN_POINT ( 'NONE',  ( 5.000000000000000888, 5.000000000000001776, 5.000000000000000000 ) ) ;
#248 = APPROVAL_PERSON_ORGANIZATION ( #257, #224, #70 ) ;
#249 = SHAPE_DEFINITION_REPRESENTATION ( #46, #99 ) ;
#250 = FACE_OUTER_BOUND ( 'NONE', #25, .T. ) ;
#251 = PLANE ( 'NONE',  #18 ) ;
#252 = ADVANCED_FACE ( 'NONE', ( #11 ), #184, .F. ) ;
#253 = FACE_OUTER_BOUND ( 'NONE', #245, .T. ) ;
#254 = DIRECTION ( 'NONE',  ( -1.000000000000000000, 1.734723475976807094E-16, 0.000000000000000000 ) ) ;
#255 = CLOSED_SHELL ( 'NONE', ( #116, #242, #32, #16, #252 ) ) ;
#256 = CARTESIAN_POINT ( 'NONE',  ( 0.000000000000000000, 0.000000000000000000, 5.000000000000000000 ) ) ;
#257 = PERSON_AND_ORGANIZATION ( #128, #24 ) ;
#258 = ORIENTED_EDGE ( 'NONE', *, *, #49, .F. ) ;
#259 = LINE ( 'NONE', #115, #305 ) ;
#260 = PERSON_AND_ORGANIZATION ( #128, #24 ) ;
#261 = CC_DESIGN_PERSON_AND_ORGANIZATION_ASSIGNMENT ( #212, #190, ( #44 ) ) ;
#262 = CARTESIAN_POINT ( 'NONE',  ( 5.000000000000002665, 5.000000000000000000, 5.000000000000000000 ) ) ;
#263 = LINE ( 'NONE', #163, #219 ) ;
#264 = DATE_AND_TIME ( #66, #43 ) ;
#265 = LOCAL_TIME ( 10, 0, 5.000000000000000000, #201 ) ;
#266 = MANIFOLD_SOLID_BREP ( 'Í¹Ì¨-À', #267 ) ;
#267 = CLOSED_SHELL ( 'NONE', ( #108, #200, #301, #125, #72 ) ) ;
#268 = ORIENTED_EDGE ( 'NONE', *, *, #94, .F. ) ;
#269 = EDGE_LOOP ( 'NONE', ( #172, #15, #1, #92 ) ) ;
#270 = ORIENTED_EDGE ( 'NONE', *, *, #94, .T. ) ;
#271 = AXIS2_PLACEMENT_3D ( 'NONE', #310, #228, #286 ) ;
#272 = VERTEX_POINT ( 'NONE', #9 ) ;
#273 = CARTESIAN_POINT ( 'NONE',  ( -4.999999999999999112, 5.000000000000001776, -5.000000000000000000 ) ) ;
#274 = EDGE_CURVE ( 'NONE', #320, #29, #259, .T. ) ;
#275 = DIRECTION ( 'NONE',  ( 0.000000000000000000, -0.000000000000000000, 1.000000000000000000 ) ) ;
#276 = AXIS2_PLACEMENT_3D ( 'NONE', #256, #42, #160 ) ;
#277 = DIRECTION ( 'NONE',  ( -0.000000000000000000, 0.000000000000000000, 1.000000000000000000 ) ) ;
#278 = EDGE_CURVE ( 'NONE', #272, #318, #206, .T. ) ;
#279 = DIRECTION ( 'NONE',  ( 0.7071067811865475727, 0.7071067811865474617, 0.000000000000000000 ) ) ;
#280 = FACE_OUTER_BOUND ( 'NONE', #147, .T. ) ;
#281 = CARTESIAN_POINT ( 'NONE',  ( 5.000000000000000888, -5.000000000000000000, 5.000000000000000000 ) ) ;
#282 = CARTESIAN_POINT ( 'NONE',  ( 5.000000000000000888, 5.000000000000001776, -5.000000000000000000 ) ) ;
#283 = APPROVAL_PERSON_ORGANIZATION ( #234, #156, #169 ) ;
#284 =( NAMED_UNIT ( * ) PLANE_ANGLE_UNIT ( ) SI_UNIT ( $, .RADIAN. ) );
#285 = ORIENTED_EDGE ( 'NONE', *, *, #239, .T. ) ;
#286 = DIRECTION ( 'NONE',  ( 2.220446049250313081E-16, 1.000000000000000000, 0.000000000000000000 ) ) ;
#287 = APPROVAL_STATUS ( 'not_yet_approved' ) ;
#288 = DIRECTION ( 'NONE',  ( -0.000000000000000000, -0.000000000000000000, -1.000000000000000000 ) ) ;
#289 = DIRECTION ( 'NONE',  ( 0.000000000000000000, 1.000000000000000000, 0.000000000000000000 ) ) ;
#290 = COORDINATED_UNIVERSAL_TIME_OFFSET ( 8, 0, .AHEAD. ) ;
#291 = CALENDAR_DATE ( 2021, 5, 1 ) ;
#292 = COORDINATED_UNIVERSAL_TIME_OFFSET ( 8, 0, .AHEAD. ) ;
#293 = ORIENTED_EDGE ( 'NONE', *, *, #4, .F. ) ;
#294 = VECTOR ( 'NONE', #117, 1000.000000000000000 ) ;
#295 = EDGE_LOOP ( 'NONE', ( #217, #47, #293 ) ) ;
#296 = CC_DESIGN_DATE_AND_TIME_ASSIGNMENT ( #161, #19, ( #44 ) ) ;
#297 = ORIENTED_EDGE ( 'NONE', *, *, #192, .T. ) ;
#298 = ORIENTED_EDGE ( 'NONE', *, *, #220, .T. ) ;
#299 = EDGE_LOOP ( 'NONE', ( #198, #124, #298, #321 ) ) ;
#300 = AXIS2_PLACEMENT_3D ( 'NONE', #34, #277, #227 ) ;
#301 = ADVANCED_FACE ( 'NONE', ( #280 ), #211, .F. ) ;
#302 = APPROVAL_DATE_TIME ( #182, #6 ) ;
#303 = PLANE ( 'NONE',  #193 ) ;
#304 = CARTESIAN_POINT ( 'NONE',  ( -4.999999999999999112, -5.000000000000000000, 5.000000000000000000 ) ) ;
#305 = VECTOR ( 'NONE', #112, 1000.000000000000000 ) ;
#306 = CARTESIAN_POINT ( 'NONE',  ( 0.000000000000000000, 0.000000000000000000, 5.000000000000000000 ) ) ;
#307 = CARTESIAN_POINT ( 'NONE',  ( -5.000000000000000888, -4.999999999999998224, -5.000000000000000000 ) ) ;
#308 = DIRECTION ( 'NONE',  ( -0.7071067811865475727, -0.7071067811865474617, 0.000000000000000000 ) ) ;
#309 = CARTESIAN_POINT ( 'NONE',  ( 5.000000000000000888, 5.000000000000001776, -5.000000000000000000 ) ) ;
#310 = CARTESIAN_POINT ( 'NONE',  ( 0.000000000000000000, 0.000000000000000000, -5.000000000000000000 ) ) ;
#311 = VECTOR ( 'NONE', #140, 1000.000000000000000 ) ;
#312 = CALENDAR_DATE ( 2021, 5, 1 ) ;
#313 = LINE ( 'NONE', #309, #142 ) ;
#314 = PERSON_AND_ORGANIZATION_ROLE ( 'design_supplier' ) ;
#315 = APPROVAL_STATUS ( 'not_yet_approved' ) ;
#316 = CC_DESIGN_APPROVAL ( #156, ( #44 ) ) ;
#317 = DIRECTION ( 'NONE',  ( 1.000000000000000000, 0.000000000000000000, 0.000000000000000000 ) ) ;
#318 = VERTEX_POINT ( 'NONE', #93 ) ;
#319 = LOCAL_TIME ( 10, 0, 5.000000000000000000, #144 ) ;
#320 = VERTEX_POINT ( 'NONE', #186 ) ;
#321 = ORIENTED_EDGE ( 'NONE', *, *, #274, .T. ) ;
ENDSEC;
END-ISO-10303-21;
